S.E.X.

Verse: (guitar 1)
|----0-----0-----0--------|
|--2---2-1---1---0--8/10--|
|*---------------0--7/9--*|
|*-------------0---------*|
|--0~----------2----------|
|--------------3----------|

Verse: (guitar 2)
|--5-----|-5-------|
|----7-5-|---7-575-|
|*-------|--------*|
|*-------|--------*|
|--------|---------|
|--------|---------|

Chorus: (guitar 1)
|----------------------------|--------------------------|
|----------------------------|--------------------------|
|------------5-------------3-|------------5-------------|
|-----3----5--------5----3---|-----3----5--------5------|
|---3----3--------5----1-----|---3----3--------5----111-|
|-1-------------3------------|-1-------------3----------|

Chorus: (guitar 2)
|----------------------------|--------------------------|
|----------------------------|--------------------------|
|--------5-55-5--------3-33-3|--------5-55-5--------333-|
|-3-33-3-5-55-5-5-55-5-3-33-3|-3-33-3-5-55-5-5-55-5-333-|
|-3-33-3-3-33-3-5-33-3-1-11-1|-3-33-3-3-33-3-5-33-3-111-|
|-1-11-1--------3-33-3-------|-1-11-1--------3-33-3-----|

BMG Music Publishing Limited

This page is part of the Prince Charming Lyrics Site