Plastic Surgery
(author unknown to  me)


INTRO (on the record the bass guitar plays the intro but you can do it
with an electric guitar, but the sound must be very "aggressive")


E------------------------------------------------------------------|
B------------------------------------------------------------------|
G------------------------------------------------------------------|
D----------5---5---------------------------4---4-----------5---5---|
A--4---4-------------------4---4-----------------------------------|
E------------------3---3-----------2---2-----------3---3-----------|

THEN C# G F# G (2 times)

C# - - - --  - - G - - -  - F# - - - - - G
- Hey, you got a face like a labrador

C# - - - -G -- - - --- - - F# - - - - - G
- I don't mind that's what I'm here for

- - C# - -G --- -F# - - - - G
The angel Gabriel sent me

- -C# - -- - - G -- - - --- F# -- - - G
To give you a little bit of sympathy Oooh I'm gonna

B - - B - - B - - B - - B - - B
take you down to Harley Street

C# - - - G - - - - F# - - - G
- Such a shame you had that crash

C# - -- - G - - - - F# - - - G
That will teach you to drive flash

C# - -G - - ----- - F#  - - G
and a lorry hit you at full power

C# - ----- - G - - - F# - - G
- Your blood gushing like a shower

C# B A C# B A A
Plastic surgery - it's so plastic

Plastic surgery - fantastic


(and you better take me away)

C# G F# G (always the same chords...)
Well you might have to sell your car
And your parent's brand new house
You lie awake and lose your sleep
Baby, miracles do not come cheap


Well you can have a brand new nose
Light blue eyes or even hazel
A little ear will be much better
When you are a real go getter

Don't go sitting in the sun
Your new face might start to run
Just forget your makeup scheme
Clean your face with Mr. Sheen

B B B B B B B B B (till the end)
I'm gonna take you down ...............

solo (easy)

E-----7--9--12--12-----7--9--12--12-----7--9--12--12-----7----- 
B--9----------------9----------------9-----------------7-------|
G--------------------------------------------------------------|
D--------------------------------------------------------------|
A--------------------------------------------------------------|
E--------------------------------------------------------------|

play the last power chord about 30 times very quickly.

BMG Music Publishing Limited

This page is part of the Prince Charming Lyrics Site