This is the bassline for

That Voodoo!

Gary Tibbs plays a little different on live recordings.
- Andreas Niemi -


|-----------|----------|----------|-----------|
|*-----2--4-|-4---22-4-|-4---2--4-|-4---22-4-*|
|*--0-------|--0-------|--0-------|--0-------*|
|-----------|----------|----------|-----------|

|-----------|----------|----------|-----------|
|*-4---3--5-|-5---33-5-|-5---2--4-|-4---22-4-*|
|*--1-------|--1-------|--0-------|--0-------*|
|-----------|----------|----------|-----------|

|-----|-----|-----|-----|-----|-----|-----|
|-----|-----|-----|-----|-----|-----|-----|
|-----|-----|----0|~----|-----|-----|-----|
|-3-5-|-3-5-|-3-5-|-3-5-|-3-5-|-3-5-|-3-5-|

|-------------|-------|---------|-----|-------|
|-------------|---2-5-|-7--5--4-|-2-1-|-------|
|---------2-3-|-3-----|---------|-----|-4(3)2-|
|-3-3-5-3-----|-------|---------|-----|-------|

|----------|----------|----------|----------|
|*----2--4-|-4---22-4-|-4---2--4-|-4---22-4-|
|*-0-------|--0-------|--0-------|--0-------|
|----------|----------|----------|----------|

|----------|----------|----------|-----------|
|-4---33-5-|-5---33-5-|-5---22-4-|-4---22-4-*|
|--1-------|--1-------|--0-------|--0-------*|
|----------|----------|----------|-----------|

|-----|-----|-----|-----|-----|-----|-----|
|-----|-----|-----|-----|-----|-----|-----|
|-----|-----|----0|~----|-----|-----|-----|
|-3-5-|-3-5-|-3-5-|-3-5-|-3-5-|-3-5-|-3-5-|

|-------------|-------|---------|-----|-------|
|-------------|---2-5-|-7--5--4-|-2-1-|-------|
|---------2-3-|-3-----|---------|-----|-4(3)2-|
|-3-3-5-3-----|-------|---------|-----|-------|

|-----------|----------|----------|-----------|
|*-----4--6-|-6---44-6-|-6---4--6-|-6---44-6-*|
|*--2-------|--2-------|--2-------|--2-------*|
|-----------|----------|----------|-----------|

|-----------|----------|----------|-----------|
|*-6---55-7-|-7---55-7-|-7---44-6-|-6---44-6-*|
|*--3-------|--3-------|--2-------|--2-------*|
|-----------|----------|----------|-----------|

|-----|-----|-----|-----|-----|-----|-----|
|-----|-----|-----|-----|-----|-----|-----|
|-----|-----|----0|~----|-----|-----|-----|
|-3-5-|-3-5-|-3-5-|-3-5-|-3-5-|-3-5-|-3-5-|

|-------------|-------|---------|-----|-------|
|-------------|---2-5-|-7--5--4-|-2-1-|-------|
|---------2-3-|-3-----|---------|-----|-4(3)2-|
|-3-3-5-3-----|-------|---------|-----|-------|

|------4--6-|-6---44-6-|-6---4--6-|-6---44-6--|
|*--2-------|--2-------|--2-------|--2-------*|
|*----------|----------|----------|----------*|
|-----------|----------|----------|-----------|

 

|--6---55-7-|-7---55-7-|-7---44-6-|-6---44-6--|
|*--3-------|--3-------|--2-------|--2-------*| (Repeat 12 times
|*----------|----------|----------|----------*| with fade out.)
|-----------|----------|----------|-----------|

(Gary makes a short fill that follows the lyric: "keeps the chill away".)

Fill:
|-6-------------10-12-14-|
|------10-10-12----------|
|---8--------------------|
|------------------------|

BMG Music Publishing Limited

This page is part of the Prince Charming Lyrics Site