Kings of the Wild Frontier
This is the bassline for 'Kings of the wild frontier'.
- Andreas Niemi -

Intro:
|----------|----------|
|*---------|---------*|
|*-7-------|-7-------*|
|-----7--0-|----7--0--|

Verse:
|------------|------------|-----------|-----------|
|*------9999-|------9999-*|------9999-|------9~---|
|*-7777------|-7777------*|-7777------|-7777------|
|------------|------------|-----------|-----------|

|-----------|-----------|-----------|
|------5555-|------5~---|-----------|
|-3333------|-3333------|--Pause----|
|-----------|-----------|-----------|

If you want to play like the guitar on that pause, like I think Gary played live,
this is the how it's done: (G A G A B G A)

|---------4------|
|-5-7-5-7----5-2-|
|----------------|
|----------------|

The next part you'll come across goes something like this:
|-------|-----7-|--------|-------|-----7--|
|-----9-|---5---|*-----7-|-----9-|---5---*|
|---7---|-7-----|*-5-7---|-5-7---|-7-----*|
|-0-----|-------|--------|-------|--------|

and that's it.

If you have questions or found any error please mail me

 

BMG Music Publishing Limited

This page is part of the Prince Charming Lyrics Site