This is the bassline for

Animals and Men

There are two versions of this song; the slow - Adam shouts: Uno, due, tre, quattro!
and the fast - Adam shouts: One, two, three, four! They're played nearly the same.
- Andreas Niemi -

Tune up step

|-------|----------------|-----------------|
|-intro-|-----------3-4-5|-6-5-4-3---------|
|-pause-|---3-4-5-6------|---------6-5-4-3-|
|-------|-4--------------|-----------------|

|-----------------|------------------|
|*-----------3-4-5|-6-5-4-3---------*|
|*---3-4-5-6------|---------6-5-4-3-*|
|--4--------------|------------------|

(Futurist Manifesto)
|----------------------------|----------------|------------------|
|*-------------2-2-----------|-----------3-4-5|-6-5-4-3---------*|
|*-2-2-2-2-2-2-----5-5-5-5-5-|---3-4-5-6------|---------6-5-4-3-*|
|----------------------------|-4--------------|------------------|

|-----------------|------------------|
|*-----------3-4-5|-6-5-4-3---------*|
|*---3-4-5-6------|---------6-5-4-3-*|
|--4--------------|------------------|

(Futurist Manifesto)
|---------------------------|----------------|
|-------------2-2-----------|-----------3-4-5|
|-2-2-2-2-2-2-----5-5-5-5-5-|---3-4-5-6------|
|---------------------------|-4--------------|

|-----------------|---------------------------|
|-6-5-4-3---------|-------------2-2-----------|
|---------6-5-4-3-|-2-2-2-2-2-2-----5-5-5-5-5-|
|-----------------|---------------------------|

(Voices of Animals...)
|-----------------|-----------|--------------|
|*-----------3-4-5|-6-5-4-3---|--------------|
|*---3-4-5-6------|-----------|-4-3-2-------2|
|--4--------------|-----------|-------2(3)4--|

|--------------|---------------|----|
|--------------|---------------|---*|
|-4-3-2-------2|-4-3-2-------2-|---*|
|-------2(3)4--|-------2(3)4---|-2--
|

|----------------|-----------------|
|-----------3-4-5|-6-5-4-3---------|
|---3-4-5-6------|---------6-5-4-3-|
|-4--------------|-----------------|

|------|-------|---------|----------------|------------------|
|*-----|-------|---------|-----------3-4-5|-6-5-4-3---------*|
|*-0-0-|-0-0-0-|-0-0-0-0-|---3-4-5-6------|---------6-5-4-3-*|
|------|-------|---------|-4--------------|------------------|

|----------------|----------------|----------------|
|----------------|----------------|----------------|
|---3-4-5---3-4-5|---3-4-5-6-5-4-3|---3-4-5---3-4-5|
|-4-------4------|-4--------------|-4-------4------|

|----------------|----------------|----------------|
|----------------|----------------|----------------|
|---3-4-5-6-5-4-3|---3-4-5---3-4-5|---3-4-5-6-5-4-3|
|-4--------------|-4-------4------|-4--------------|

(Futurist Manifesto)
|----------------------------|----------------|------------------|
|*-------------2-2-----------|-----------3-4-5|-6-5-4-3---------*|
|*-2-2-2-2-2-2-----5-5-5-5-5-|---3-4-5-6------|---------6-5-4-3-*|
|----------------------------|-4--------------|------------------|

|-----------------|------------------|
|*-----------3-4-5|-6-5-4-3---------*|
|*---3-4-5-6------|---------6-5-4-3-*|
|--4--------------|------------------|

(Futurist Manifesto)
|---------------------------|----------------|
|-------------2-2-----------|-----------3-4-5|
|-2-2-2-2-2-2-----5-5-5-5-5-|---3-4-5-6------|
|---------------------------|-4--------------|

|-----------------|---------------------------|
|-6-5-4-3---------|-------------2-2-----------|
|---------6-5-4-3-|-2-2-2-2-2-2-----5-5-5-5-5-|
|-----------------|---------------------------|

(Voices of Animals...)
|-----------------|-----------|--------------|
|*-----------3-4-5|-6-5-4-3---|--------------|
|*---3-4-5-6------|-----------|-4-3-2-------2|
|--4--------------|-----------|-------2(3)4--|

|--------------|---------------|----|
|--------------|---------------|---*|
|-4-3-2-------2|-4-3-2-------2-|---*|
|-------2(3)4--|-------2(3)4---|-2--|

|----------------|-----------------|
|-----------3-4-5|-6-5-4-3---------|
|---3-4-5-6------|---------6-5-4-3-|
|-4--------------|-----------------|

|------|-------|---------|----------------|------------------|
|*-----|-------|---------|-----------3-4-5|-6-5-4-3---------*|
|*-0-0-|-0-0-0-|-0-0-0-0-|---3-4-5-6------|---------6-5-4-3-*|
|------|-------|---------|-4--------------|------------------|

|-----------------|-----------------|---3-4-5--6-5-4~---------||
|---6-5-4---------|-----------3-4-5-|-6---------------6-5-4-3-||
|-----------6-5-4-|-----3-4-6-------|-------------------------||
|-4-------6-------|-4-4-------------|-------------------------||

BMG Music Publishing Limited

This page is part of the Prince Charming Lyrics Site